News:

Please begin sharing multitrack files as FLAC files. Read more here!

 

Author Topic: Looking out  (Read 5712 times)

March 02, 2011, 05:12:18 AM

Looking Out Acoustic Version

Here is link to new file in post in thread.

http://mixoff.org/index.php?action=dlattach;topic=50.0;attach=745

Here is a drumless Wav file...Hopfully the link works.

https://docs.google.com/file/d/0By3wmv9W5mREZmJVbmVBWUdUakE/edit?usp=sharing



« Last Edit: August 23, 2013, 11:11:49 PM by Vincent »

  • **
March 02, 2011, 09:05:23 AM
No raw stems to work with  ???   A processed premixed .wav kind of defeats the purpose of the board.

& for personal taste, I like to lower or mute the vox while laying down a solid drum track, bass track etc.
« Last Edit: March 02, 2011, 09:18:33 AM by RealMusician »

  • **
March 02, 2011, 05:13:55 PM
OK, I'll try and get som drums going...
-This one goes to eleven!

March 02, 2011, 05:27:42 PM

Thanks Fred... 8)

March 02, 2011, 05:42:08 PM
No raw stems to work with  ???   A processed premixed .wav kind of defeats the purpose of the board.

& for personal taste, I like to lower or mute the vox while laying down a solid drum track, bass track etc.

I was going to upload raw stems later on when recording is done...I will gather everyones stems and post them all in one folder.

If I get the chance I will try and post a few stems I have at this point or perhaps post a guitar WAV file mix and a Vocal WAV mix without guitar for tracking purposes.

Im still in the process of editing the backup vocals...backups sang through the whole song with lead vox however It needs editing so thats why I have not posted stems yet.

« Last Edit: March 02, 2011, 05:51:06 PM by Vincent »

March 03, 2011, 05:57:53 AM
"I can post chords or tab out the guitar parts if anyone wants them"

That would be nice.
Also, which key it's in...
And eventually, the multitrack, if possible.

Cheers

March 03, 2011, 08:52:46 PM
Hi Vincent,
I made a guitar track. Simple.
Here you go :

http://nicksevilla.com/music/LookingOut-Telecaster-NOEQPLEASE.wav

March 04, 2011, 07:39:56 AM
noeqplease I listened to your guitar track...I liked a few spots...I liked one riff you did and it gave me an idea for a few parts.

Im posting an mp3 of the riff I liked you did however its me playing the riff...just a quick rough recording...perhaps you or someone else can create something a bit better...I think that riff would sound good done with strings/midi stuff as well...a chello sound would probably sound good in this song.

I like the idea of having some filler riffs in the song instead of guitar over guitar through the whole song.

We can use your riff and add you as part of the writing credit...see if you can come up with some more riffs.

Here is the song in Tab form...I forgot to tab the ending...the ending is similar with one or two changed root notes...when I get a chance I will tab the ending of song.

Guitar is tuned a whole step down.

E------------------------------
B-------3-----3-----3------3---
G----2------0-----0------0------
D--0--------------------------
A---------3-----2------3-------
E--------------------------

E------------------------------
B-------3-----3-----3---------
G----2------0-----0------0------
D--0--------------------------
A---------3-----2------1----3---
E--------------------------

E------------------------------
B-------3-----3-----3------3---
G----2------0-----0------0------
D--0--------------------------
A---------3-----2------3-------
E--------------------------

E--2--2--------------------------
B--3--3---3---3---3-----3---3-----
G--2--2---0---0---0-----0---0------
D--0--0---0---0---0-----0---0-------
A---------3---2---3-----2---3----
E--------------------------

Play 8 times (below)

E------------------------------
B-------3-----3-----3------3---
G----2------0-----0------0------
D--0--------------------------
A---------3-----2------3-------
E--------------------------

Basically strum D and C chord then end with this chord below (Csus2)

E--3----------------------------
B--3-----------------------
G--5-------------------------
D--5--------------------------
A--3-------------------------
E--------------------------


chords for the bridge part.

Play twice

E--- 0---0------------
B----0---1----------
G----0---0---------
D--- 2---2-------------
A----2---3------------
E----0----------------

Play 3 times

E---2----------------
B---3---3------------
G---2---0-----------
D---0----------------
A-------3------------
E--------------------

(Csus2)

E--2-2-2-2----3----------------------------
B--3-3-3-3----3-----------------------
G--2-2-2-2----5-------------------------
D--0-0-0-0----5--------------------------
A--------------3-------------------------
E--------------------------

« Last Edit: March 08, 2011, 06:01:49 PM by Vincent »

  • **
March 04, 2011, 03:55:26 PM
Forget the tab, just send me the tracks! So I can add drums and mix this thang!
Mix It!

March 04, 2011, 04:04:25 PM
noeqplease I listened to your guitar track...I liked a few spots...I liked one riff you did and it gave me an idea for a few parts.
Im posting an mp3 of the riff I liked you did however its me playing the riff...just a quick rough recording...perhaps you or someone else can create something a bit better...I think that riff would sound good done with strings/midi stuff as well...a chello sound would probably sound good in this song.
I like the idea of having some filler riffs in the song instead of guitar over guitar through the whole song.
We can use your riff and add you as part of the writing credit...see if you can come up with some more riffs.
Here is the song in Tab form...I forgot to tab the ending...the ending is similar with one or two changed root notes...when I get a chance I will tab the ending of song.
Guitar is tuned a whole step down.
[SNIP]

Hi Vincent,

Thanks for the compliment o the guitar riffs. I'll play around a bit more later today with that concept in mind.
I'll put some more licks in appropriate places, then you can do with them what you please.
Cheers