News:

Please begin sharing multitrack files as FLAC files. Read more here!

 

Author Topic: 155BPM Drum Track  (Read 3425 times)

May 14, 2011, 07:20:55 PM

Fixed beginning a bit and added more to the song...removed lead.

Not sure if this is the type of song you guys are into however I figuered I would post it and see if you like it or not.

Kind of a Metallica meets black sabbath type of vibe to the song so far.


http://dl.dropbox.com/u/8412827/Loon%203.mp3

  • ***
May 14, 2011, 08:18:48 PM
Hey Noeq and Vincent. Diggin the tracks.

That bass sound is huge, Noeq.

Vincent, nice guitar track as well. For sure lookin forward to the stems.

May 14, 2011, 11:48:51 PM
 8)

Here is what I have so far.

Im going to redo a few spots to clean up the timing a bit however this a good start on it for now...riff starting at the 1:23 mark needs redoing...I forgot to add click track to that spot to keep me in time...Dont like the wah wah on the rhythm guitar so i will probably replace that as well.

I have 7 guitar tracks in total...I will be redoing tracks 3,4 and 5 in the next day or so.

EDIT: These are up to date files...no need to search thread for latest files...there here.

Preveiw
http://dl.dropbox.com/u/8412827/Loon%204.mp3

Stems

http://dl.dropbox.com/u/8412827/Vincent%20guitars.zip

Lead guitar stems

http://dl.dropbox.com/u/8412827/Lead%20guitar.wav

« Last Edit: May 15, 2011, 06:38:32 PM by Vincent »

  • ***
May 15, 2011, 01:02:35 AM
Sweet lead. ;D

May 15, 2011, 04:25:56 AM
Hey Noeq and Vincent. Diggin the tracks.

That bass sound is huge, Noeq.

Vincent, nice guitar track as well. For sure lookin forward to the stems.

Hi Loon. Thanks for the compliment.
Hey Vincent, how about you send me a chart of what you played, and I'll put some of my tasty bass to your harmonies?
That, would be called collaboration.
Oh, and Vincent, don't forget to post your stems, once you have it exactly the way you want it. Cool avatar too... Iron Maiden...

May 15, 2011, 11:19:19 AM

You guys have any suggestions on how to improve song structure?...Song is ok as is however it could be better I think.

I will add lead guitar to song as well once I think of some decent melodies and riffs for it.

Here is tab of what I played.

Beginning is basically in the key of E.

Riff

E---------------------------------------------
B--------------------------------------------
G------------------------------------------
D----------------------------------------
A----------4------5--------4-------------
E-0-0-0-0----0-0----0-0-0----3^----------------

E---------------------------------------------
B--------------------------------------------
G------------------------------------------
D----------------------------------------
A----------4------5---------------------
E-0-0-0-0----0-0----0-0-0-0-0--2-3--0------------

E---------------------------------------------
B--------------------------------------------
G------------------------------------------
D----------------------------------------
A----------4------5--------4-------------
E-0-0-0-0----0-0----0-0-0----3^----------------


E---------------------------------------------
B--------------------------------------------
G------------------------------------------
D----------------------------------------
A---------4-------5---------------------
E-0-0-0-0----0-0----0-0-0-0--6 (vibrato)----------------

more tab in next post

May 15, 2011, 11:29:23 AM
E----------------------------------
B--------------------------------
G--------------------------------
D-0-2-----------------------------0-1-----0-2----5-4---4-3---3-2---0-1---0-2---5-4---4-3---3-2--
A-0-2-----------------------------0-1-----0-2----5-4---4-3---3-2---0-1---0-2---5-4---4-3---3-2--
E-----0-0-0-0-0-0-0-0-0-0-0-0-0--------------


E-------------------------------------------
B--------------------------------------------
G--------------------------------------------
D--------------------------------9------------
A------3-2------4-3------5-4----7-----------------
E--0-1------0-1------0-1-----0-----------------------
« Last Edit: May 15, 2011, 11:33:53 AM by Vincent »

May 15, 2011, 06:35:01 PM

Since loon mentioned "sweet lead" I thought I would post the lead guitars I did before while I work on some new stuff.

When it comes to final mix...edit any and all tracks to your liking.

The more tracks to choose from the better I think...Im recording song in pieces (almost like a loop) to make it easy to remove or add a new part to song.

http://dl.dropbox.com/u/8412827/Lead%20guitar.wav

May 16, 2011, 03:02:13 PM
Cool... downloading your guitars parts Vincent.
I should have something by the end of the week, I'm getting busy with these mixes again. (overdubs coming down the internet-pipe-thingy)

January 23, 2012, 04:10:55 PM

Anyone think this song is worth working on again.

I edited that guitar riff in middle so it flows a bit better.

Here is the latest rough mix to track to

http://dl.dropbox.com/u/52522401/Black%20Mammoth%20Jan%2023.wav